  0
SECTION
  2
HEADER
  9
$ACADVER
  1
AC1018
  9
$HANDSEED
  5
FFFFFF
  9
$EXTMAX
 10
7565435.65699999966
 20
5718040.72200000007
 30
1000000.00
  9
$EXTMIN
 10
7565232.75499999989
 20
5717840.29399999976
 30
0.00
  9
$LIMMIN
 10
7565232.75499999989
 20
5717840.29399999976
  9
$LIMMAX
 10
7565435.65699999966
 20
5718040.72200000007
  9
$DIMASZ
 40
2.5
  9
$DIMGAP
 40
0.625
  9
$INSUNITS
 70
6
  9
$MEASUREMENT
 70
1
  9
$DIMEXO
 40
0.625
  9
$DIMTXT
 40
2.5
  9
$DIMSTYLE
  2
Standard
  9
$PLIMMIN
 10
0.0
 20
0.0
  9
$PLIMMAX
 10
210.0
 20
297.0
  9
$DIMEXE
 40
1.25
  9
$TEXTSIZE
 40
2.5
  9
$TEXTSTYLE
  7
Standard
  9
$LWDISPLAY
290
1
  9
$TDCREATE
 40
45680.537250822
  9
$TDUCREATE
 40
45680.495584155
  9
$TDUPDATE
 40
45680.537250822
  9
$TDUUPDATE
 40
45680.495584155
  9
$TDINDWG
 40
0.0
  9
$TDUSRTIMER
 40
0.0
  9
$USRTIMER
 70
1
  0
ENDSEC
  0
SECTION
  2
TABLES
  0
TABLE
  2
VPORT
  5
1
100
AcDbSymbolTable
 70
1
  0
VPORT
  5
2
100
AcDbSymbolTableRecord
100
AcDbViewportTableRecord
  2
*ACTIVE
 70
0
 10
0.0
 20
0.0
 11
1.0
 21
1.0
 12
7565334.206
 22
5717940.508
 13
0.0
 23
0.0
 14
1.0
 24
1.0
 15
0.0
 25
0.0
 16
0.0
 26
0.0
 36
1.0
 17
0.0
 27
0.0
 37
0.0
 40
200.428
 41
1.012
 42
50.0
 43
0.0
 44
0.0
 50
0.0
 51
0.0
 71
0
 72
100
 73
1
 74
1
 75
0
 76
0
 77
0
 78
0
  0
ENDTAB
  0
TABLE
  2
LTYPE
  5
3
100
AcDbSymbolTable
 70
3
  0
LTYPE
  5
4
100
AcDbSymbolTableRecord
100
AcDbLinetypeTableRecord
  2
ByBlock
 70
0
  3

 72
65
 73
0
 40
0.0
  0
LTYPE
  5
5
100
AcDbSymbolTableRecord
100
AcDbLinetypeTableRecord
  2
ByLayer
 70
0
  3

 72
65
 73
0
 40
0.0
  0
LTYPE
  5
6
100
AcDbSymbolTableRecord
100
AcDbLinetypeTableRecord
  2
CONTINUOUS
 70
0
  3
Solid line
 72
65
 73
0
 40
0.0
  0
LTYPE
  5
7
100
AcDbSymbolTableRecord
100
AcDbLinetypeTableRecord
  2
L_0_03
 70
0
  3
Uzytek_gruntowy
 72
65
 73
2
 40
0.5
 49
0.25
 74
0
 49
-0.25
 74
0
  0
ENDTAB
  0
TABLE
  2
LAYER
  5
8
100
AcDbSymbolTable
 70
6
  0
LAYER
  5
9
100
AcDbSymbolTableRecord
100
AcDbLayerTableRecord
  2
0
 70
0
 62
-7
420
0
  6
CONTINUOUS
370
18
390
A
  0
LAYER
  5
B
100
AcDbSymbolTableRecord
100
AcDbLayerTableRecord
  2
Dzialki
 70
0
420
32768
  6
CONTINUOUS
370
18
390
A
  0
LAYER
  5
C
100
AcDbSymbolTableRecord
100
AcDbLayerTableRecord
  2
Numery_dzialek
 70
0
420
32768
  6
CONTINUOUS
370
18
390
A
  0
LAYER
  5
D
100
AcDbSymbolTableRecord
100
AcDbLayerTableRecord
  2
obrys_budynku
 70
0
420
0
  6
CONTINUOUS
370
18
390
A
  0
LAYER
  5
E
100
AcDbSymbolTableRecord
100
AcDbLayerTableRecord
  2
Osie
 70
0
420
16711680
  6
CONTINUOUS
370
18
390
A
  0
LAYER
  5
F
100
AcDbSymbolTableRecord
100
AcDbLayerTableRecord
  2
POMOCNICZE
 70
0
420
16711935
  6
CONTINUOUS
370
13
390
A
  0
ENDTAB
  0
TABLE
  2
STYLE
  5
10
100
AcDbSymbolTable
 70
2
  0
STYLE
  5
11
100
AcDbSymbolTableRecord
100
AcDbTextStyleTableRecord
  2
STANDARD
 70
0
 40
0.0
 41
1.0
 50
0.0
 71
0
  3
simplex.shx
  4

  0
STYLE
  5
12
100
AcDbSymbolTableRecord
100
AcDbTextStyleTableRecord
  2
STANDARD_ITALIC
 70
0
 40
0.0
 41
1.0
 50
15.0
 71
0
  3
simplex.shx
  4

  0
ENDTAB
  0
TABLE
  2
VIEW
  5
13
100
AcDbSymbolTable
 70
0
  0
ENDTAB
  0
TABLE
  2
UCS
  5
14
100
AcDbSymbolTable
 70
0
  0
ENDTAB
  0
TABLE
  2
APPID
  5
15
100
AcDbSymbolTable
 70
1
  0
APPID
  5
16
100
AcDbSymbolTableRecord
100
AcDbRegAppTableRecord
  2
ACAD
 70
0
  0
ENDTAB
  0
TABLE
  2
DIMSTYLE
  5
17
100
AcDbSymbolTable
 70
1
100
AcDbDimStyleTable
  0
DIMSTYLE
105
18
100
AcDbSymbolTableRecord
100
AcDbDimStyleTableRecord
  2
Standard
 70
0
340
11
  0
ENDTAB
  0
TABLE
  2
BLOCK_RECORD
  5
19
100
AcDbSymbolTable
 70
2
  0
BLOCK_RECORD
  5
1A
100
AcDbSymbolTableRecord
100
AcDbBlockTableRecord
  2
*Model_Space
340
1B
  0
BLOCK_RECORD
  5
1C
100
AcDbSymbolTableRecord
100
AcDbBlockTableRecord
  2
*Paper_Space
340
1D
  0
ENDTAB
  0
ENDSEC
  0
SECTION
  2
BLOCKS
  0
BLOCK
  5
1E
100
AcDbEntity
  8
0
100
AcDbBlockBegin
  2
*Model_Space
 70
0
 10
0.0
 20
0.0
 30
0.0
  3
*Model_Space
  1

  0
ENDBLK
  5
1F
100
AcDbEntity
  8
0
100
AcDbBlockEnd
  0
BLOCK
  5
20
100
AcDbEntity
 67
1
  8
0
100
AcDbBlockBegin
  2
*Paper_Space
 70
0
 10
0.0
 20
0.0
 30
0.0
  3
*Paper_Space
  1

  0
ENDBLK
  5
21
100
AcDbEntity
 67
1
  8
0
100
AcDbBlockEnd
  0
ENDSEC
  0
SECTION
  2
ENTITIES
  0
POLYLINE
  5
22
100
AcDbEntity
  8
Dzialki
  6
CONTINUOUS
370
18
100
AcDb2dPolyline
 66
1
 70
128
  0
VERTEX
  5
23
100
AcDbEntity
  8
Dzialki
100
AcDbVertex
100
AcDb2dVertex
 10
7565331.36000000034
 20
5717887.70999999996
  0
VERTEX
  5
24
100
AcDbEntity
  8
Dzialki
100
AcDbVertex
100
AcDb2dVertex
 10
7565232.75457686838
 20
5718009.36246022023
  0
SEQEND
  5
25
100
AcDbEntity
  8
Dzialki
  0
POLYLINE
  5
26
100
AcDbEntity
  8
Dzialki
  6
CONTINUOUS
370
18
100
AcDb2dPolyline
 66
1
 70
128
  0
VERTEX
  5
27
100
AcDbEntity
  8
Dzialki
100
AcDbVertex
100
AcDb2dVertex
 10
7565319.05195110943
 20
5717886.6282949904
  0
VERTEX
  5
28
100
AcDbEntity
  8
Dzialki
100
AcDbVertex
100
AcDb2dVertex
 10
7565331.36000000034
 20
5717887.70999999996
  0
SEQEND
  5
29
100
AcDbEntity
  8
Dzialki
  0
POLYLINE
  5
2A
100
AcDbEntity
  8
Dzialki
  6
CONTINUOUS
370
18
100
AcDb2dPolyline
 66
1
 70
128
  0
VERTEX
  5
2B
100
AcDbEntity
  8
Dzialki
100
AcDbVertex
100
AcDb2dVertex
 10
7565356.62000000011
 20
5717889.91999999993
  0
VERTEX
  5
2C
100
AcDbEntity
  8
Dzialki
100
AcDbVertex
100
AcDb2dVertex
 10
7565249.88955445308
 20
5718021.59119259287
  0
SEQEND
  5
2D
100
AcDbEntity
  8
Dzialki
  0
POLYLINE
  5
2E
100
AcDbEntity
  8
Dzialki
  6
CONTINUOUS
370
18
100
AcDb2dPolyline
 66
1
 70
128
  0
VERTEX
  5
2F
100
AcDbEntity
  8
Dzialki
100
AcDbVertex
100
AcDb2dVertex
 10
7565331.36000000034
 20
5717887.70999999996
  0
VERTEX
  5
30
100
AcDbEntity
  8
Dzialki
100
AcDbVertex
100
AcDb2dVertex
 10
7565356.62000000011
 20
5717889.91999999993
  0
SEQEND
  5
31
100
AcDbEntity
  8
Dzialki
  0
POLYLINE
  5
32
100
AcDbEntity
  8
Dzialki
  6
CONTINUOUS
370
18
100
AcDb2dPolyline
 66
1
 70
128
  0
VERTEX
  5
33
100
AcDbEntity
  8
Dzialki
100
AcDbVertex
100
AcDb2dVertex
 10
7565435.65651045926
 20
5717892.50618593674
  0
VERTEX
  5
34
100
AcDbEntity
  8
Dzialki
100
AcDbVertex
100
AcDb2dVertex
 10
7565367.95999999996
 20
5717850.61000000034
  0
SEQEND
  5
35
100
AcDbEntity
  8
Dzialki
  0
POLYLINE
  5
36
100
AcDbEntity
  8
Dzialki
  6
CONTINUOUS
370
18
100
AcDb2dPolyline
 66
1
 70
128
  0
VERTEX
  5
37
100
AcDbEntity
  8
Dzialki
100
AcDbVertex
100
AcDb2dVertex
 10
7565367.95999999996
 20
5717850.61000000034
  0
VERTEX
  5
38
100
AcDbEntity
  8
Dzialki
100
AcDbVertex
100
AcDb2dVertex
 10
7565368.80352714565
 20
5717849.35126519296
  0
SEQEND
  5
39
100
AcDbEntity
  8
Dzialki
  0
POLYLINE
  5
3A
100
AcDbEntity
  8
Dzialki
  6
CONTINUOUS
370
18
100
AcDb2dPolyline
 66
1
 70
128
  0
VERTEX
  5
3B
100
AcDbEntity
  8
Dzialki
100
AcDbVertex
100
AcDb2dVertex
 10
7565354.80277446285
 20
5717842.47111605201
  0
VERTEX
  5
3C
100
AcDbEntity
  8
Dzialki
100
AcDbVertex
100
AcDb2dVertex
 10
7565367.95999999996
 20
5717850.61000000034
  0
SEQEND
  5
3D
100
AcDbEntity
  8
Dzialki
  0
POLYLINE
  5
3E
100
AcDbEntity
  8
Dzialki
  6
CONTINUOUS
370
18
100
AcDb2dPolyline
 66
1
 70
128
  0
VERTEX
  5
3F
100
AcDbEntity
  8
Dzialki
100
AcDbVertex
100
AcDb2dVertex
 10
7565419.44403833151
 20
5717912.46996730659
  0
VERTEX
  5
40
100
AcDbEntity
  8
Dzialki
100
AcDbVertex
100
AcDb2dVertex
 10
7565393.75
 20
5717896.3200000003
  0
SEQEND
  5
41
100
AcDbEntity
  8
Dzialki
  0
POLYLINE
  5
42
100
AcDbEntity
  8
Dzialki
  6
CONTINUOUS
370
18
100
AcDb2dPolyline
 66
1
 70
128
  0
VERTEX
  5
43
100
AcDbEntity
  8
Dzialki
100
AcDbVertex
100
AcDb2dVertex
 10
7565393.75
 20
5717896.3200000003
  0
VERTEX
  5
44
100
AcDbEntity
  8
Dzialki
100
AcDbVertex
100
AcDb2dVertex
 10
7565390.86000000034
 20
5717894.50999999978
  0
SEQEND
  5
45
100
AcDbEntity
  8
Dzialki
  0
POLYLINE
  5
46
100
AcDbEntity
  8
Dzialki
  6
CONTINUOUS
370
18
100
AcDb2dPolyline
 66
1
 70
128
  0
VERTEX
  5
47
100
AcDbEntity
  8
Dzialki
100
AcDbVertex
100
AcDb2dVertex
 10
7565390.86000000034
 20
5717894.50999999978
  0
VERTEX
  5
48
100
AcDbEntity
  8
Dzialki
100
AcDbVertex
100
AcDb2dVertex
 10
7565365.71999999974
 20
5717878.69000000041
  0
SEQEND
  5
49
100
AcDbEntity
  8
Dzialki
  0
POLYLINE
  5
4A
100
AcDbEntity
  8
Dzialki
  6
CONTINUOUS
370
18
100
AcDb2dPolyline
 66
1
 70
128
  0
VERTEX
  5
4B
100
AcDbEntity
  8
Dzialki
100
AcDbVertex
100
AcDb2dVertex
 10
7565365.71999999974
 20
5717878.69000000041
  0
VERTEX
  5
4C
100
AcDbEntity
  8
Dzialki
100
AcDbVertex
100
AcDb2dVertex
 10
7565347.79000000004
 20
5717867.41999999993
  0
SEQEND
  5
4D
100
AcDbEntity
  8
Dzialki
  0
POLYLINE
  5
4E
100
AcDbEntity
  8
Dzialki
  6
CONTINUOUS
370
18
100
AcDb2dPolyline
 66
1
 70
128
  0
VERTEX
  5
4F
100
AcDbEntity
  8
Dzialki
100
AcDbVertex
100
AcDb2dVertex
 10
7565347.79000000004
 20
5717867.41999999993
  0
VERTEX
  5
50
100
AcDbEntity
  8
Dzialki
100
AcDbVertex
100
AcDb2dVertex
 10
7565339.05411209818
 20
5717861.92287790868
  0
SEQEND
  5
51
100
AcDbEntity
  8
Dzialki
  0
POLYLINE
  5
52
100
AcDbEntity
  8
Dzialki
  6
CONTINUOUS
370
18
100
AcDb2dPolyline
 66
1
 70
128
  0
VERTEX
  5
53
100
AcDbEntity
  8
Dzialki
100
AcDbVertex
100
AcDb2dVertex
 10
7565347.79000000004
 20
5717867.41999999993
  0
VERTEX
  5
54
100
AcDbEntity
  8
Dzialki
100
AcDbVertex
100
AcDb2dVertex
 10
7565345.20999999996
 20
5717870.59999999963
  0
SEQEND
  5
55
100
AcDbEntity
  8
Dzialki
  0
POLYLINE
  5
56
100
AcDbEntity
  8
Dzialki
  6
CONTINUOUS
370
18
100
AcDb2dPolyline
 66
1
 70
128
  0
VERTEX
  5
57
100
AcDbEntity
  8
Dzialki
100
AcDbVertex
100
AcDb2dVertex
 10
7565345.20999999996
 20
5717870.59999999963
  0
VERTEX
  5
58
100
AcDbEntity
  8
Dzialki
100
AcDbVertex
100
AcDb2dVertex
 10
7565336.53405448329
 20
5717865.03549531475
  0
SEQEND
  5
59
100
AcDbEntity
  8
Dzialki
  0
POLYLINE
  5
5A
100
AcDbEntity
  8
Dzialki
  6
CONTINUOUS
370
18
100
AcDb2dPolyline
 66
1
 70
128
  0
VERTEX
  5
5B
100
AcDbEntity
  8
Dzialki
100
AcDbVertex
100
AcDb2dVertex
 10
7565345.20999999996
 20
5717870.59999999963
  0
VERTEX
  5
5C
100
AcDbEntity
  8
Dzialki
100
AcDbVertex
100
AcDb2dVertex
 10
7565331.36000000034
 20
5717887.70999999996
  0
SEQEND
  5
5D
100
AcDbEntity
  8
Dzialki
  0
POLYLINE
  5
5E
100
AcDbEntity
  8
Dzialki
  6
CONTINUOUS
370
18
100
AcDb2dPolyline
 66
1
 70
128
  0
VERTEX
  5
5F
100
AcDbEntity
  8
Dzialki
100
AcDbVertex
100
AcDb2dVertex
 10
7565365.71999999974
 20
5717878.69000000041
  0
VERTEX
  5
60
100
AcDbEntity
  8
Dzialki
100
AcDbVertex
100
AcDb2dVertex
 10
7565363.01999999955
 20
5717882.01999999862
  0
SEQEND
  5
61
100
AcDbEntity
  8
Dzialki
  0
POLYLINE
  5
62
100
AcDbEntity
  8
Dzialki
  6
CONTINUOUS
370
18
100
AcDb2dPolyline
 66
1
 70
128
  0
VERTEX
  5
63
100
AcDbEntity
  8
Dzialki
100
AcDbVertex
100
AcDb2dVertex
 10
7565363.01999999955
 20
5717882.01999999862
  0
VERTEX
  5
64
100
AcDbEntity
  8
Dzialki
100
AcDbVertex
100
AcDb2dVertex
 10
7565345.20999999996
 20
5717870.59999999963
  0
SEQEND
  5
65
100
AcDbEntity
  8
Dzialki
  0
POLYLINE
  5
66
100
AcDbEntity
  8
Dzialki
  6
CONTINUOUS
370
18
100
AcDb2dPolyline
 66
1
 70
128
  0
VERTEX
  5
67
100
AcDbEntity
  8
Dzialki
100
AcDbVertex
100
AcDb2dVertex
 10
7565363.01999999955
 20
5717882.01999999862
  0
VERTEX
  5
68
100
AcDbEntity
  8
Dzialki
100
AcDbVertex
100
AcDb2dVertex
 10
7565356.62000000011
 20
5717889.91999999993
  0
SEQEND
  5
69
100
AcDbEntity
  8
Dzialki
  0
POLYLINE
  5
6A
100
AcDbEntity
  8
Dzialki
  6
CONTINUOUS
370
18
100
AcDb2dPolyline
 66
1
 70
128
  0
VERTEX
  5
6B
100
AcDbEntity
  8
Dzialki
100
AcDbVertex
100
AcDb2dVertex
 10
7565390.86000000034
 20
5717894.50999999978
  0
VERTEX
  5
6C
100
AcDbEntity
  8
Dzialki
100
AcDbVertex
100
AcDb2dVertex
 10
7565380.26999999955
 20
5717893.08999999985
  0
SEQEND
  5
6D
100
AcDbEntity
  8
Dzialki
  0
POLYLINE
  5
6E
100
AcDbEntity
  8
Dzialki
  6
CONTINUOUS
370
18
100
AcDb2dPolyline
 66
1
 70
128
  0
VERTEX
  5
6F
100
AcDbEntity
  8
Dzialki
100
AcDbVertex
100
AcDb2dVertex
 10
7565380.26999999955
 20
5717893.08999999985
  0
VERTEX
  5
70
100
AcDbEntity
  8
Dzialki
100
AcDbVertex
100
AcDb2dVertex
 10
7565363.01999999955
 20
5717882.01999999862
  0
SEQEND
  5
71
100
AcDbEntity
  8
Dzialki
  0
POLYLINE
  5
72
100
AcDbEntity
  8
Dzialki
  6
CONTINUOUS
370
18
100
AcDb2dPolyline
 66
1
 70
128
  0
VERTEX
  5
73
100
AcDbEntity
  8
Dzialki
100
AcDbVertex
100
AcDb2dVertex
 10
7565380.26999999955
 20
5717893.08999999985
  0
VERTEX
  5
74
100
AcDbEntity
  8
Dzialki
100
AcDbVertex
100
AcDb2dVertex
 10
7565356.62000000011
 20
5717889.91999999993
  0
SEQEND
  5
75
100
AcDbEntity
  8
Dzialki
  0
POLYLINE
  5
76
100
AcDbEntity
  8
Dzialki
  6
CONTINUOUS
370
18
100
AcDb2dPolyline
 66
1
 70
128
  0
VERTEX
  5
77
100
AcDbEntity
  8
Dzialki
100
AcDbVertex
100
AcDb2dVertex
 10
7565393.75
 20
5717896.3200000003
  0
VERTEX
  5
78
100
AcDbEntity
  8
Dzialki
100
AcDbVertex
100
AcDb2dVertex
 10
7565390.70000000019
 20
5717900.08000000007
  0
SEQEND
  5
79
100
AcDbEntity
  8
Dzialki
  0
POLYLINE
  5
7A
100
AcDbEntity
  8
Dzialki
  6
CONTINUOUS
370
18
100
AcDb2dPolyline
 66
1
 70
128
  0
VERTEX
  5
7B
100
AcDbEntity
  8
Dzialki
100
AcDbVertex
100
AcDb2dVertex
 10
7565390.70000000019
 20
5717900.08000000007
  0
VERTEX
  5
7C
100
AcDbEntity
  8
Dzialki
100
AcDbVertex
100
AcDb2dVertex
 10
7565384.46999999974
 20
5717895.79000000004
  0
SEQEND
  5
7D
100
AcDbEntity
  8
Dzialki
  0
POLYLINE
  5
7E
100
AcDbEntity
  8
Dzialki
  6
CONTINUOUS
370
18
100
AcDb2dPolyline
 66
1
 70
128
  0
VERTEX
  5
7F
100
AcDbEntity
  8
Dzialki
100
AcDbVertex
100
AcDb2dVertex
 10
7565384.46999999974
 20
5717895.79000000004
  0
VERTEX
  5
80
100
AcDbEntity
  8
Dzialki
100
AcDbVertex
100
AcDb2dVertex
 10
7565380.26999999955
 20
5717893.08999999985
  0
SEQEND
  5
81
100
AcDbEntity
  8
Dzialki
  0
POLYLINE
  5
82
100
AcDbEntity
  8
Dzialki
  6
CONTINUOUS
370
18
100
AcDb2dPolyline
 66
1
 70
128
  0
VERTEX
  5
83
100
AcDbEntity
  8
Dzialki
100
AcDbVertex
100
AcDb2dVertex
 10
7565390.70000000019
 20
5717900.08000000007
  0
VERTEX
  5
84
100
AcDbEntity
  8
Dzialki
100
AcDbVertex
100
AcDb2dVertex
 10
7565276.69548398908
 20
5718040.72180053592
  0
SEQEND
  5
85
100
AcDbEntity
  8
Dzialki
  0
POLYLINE
  5
86
100
AcDbEntity
  8
Dzialki
  6
CONTINUOUS
370
18
100
AcDb2dPolyline
 66
1
 70
128
  0
VERTEX
  5
87
100
AcDbEntity
  8
Dzialki
100
AcDbVertex
100
AcDb2dVertex
 10
7565415.57576981932
 20
5717917.2332918793
  0
VERTEX
  5
88
100
AcDbEntity
  8
Dzialki
100
AcDbVertex
100
AcDb2dVertex
 10
7565390.70000000019
 20
5717900.08000000007
  0
SEQEND
  5
89
100
AcDbEntity
  8
Dzialki
  0
POLYLINE
  5
8A
100
AcDbEntity
  8
obrys_budynku
  6
CONTINUOUS
370
18
100
AcDb2dPolyline
 66
1
 70
128
  0
VERTEX
  5
8B
100
AcDbEntity
  8
obrys_budynku
100
AcDbVertex
100
AcDb2dVertex
 10
7565323.30939501431
 20
5717967.16083045024
  0
VERTEX
  5
8C
100
AcDbEntity
  8
obrys_budynku
100
AcDbVertex
100
AcDb2dVertex
 10
7565313.79346166365
 20
5717959.44658956304
  0
VERTEX
  5
8D
100
AcDbEntity
  8
obrys_budynku
100
AcDbVertex
100
AcDb2dVertex
 10
7565321.07948346436
 20
5717950.45888761524
  0
SEQEND
  5
8E
100
AcDbEntity
  8
obrys_budynku
  0
POLYLINE
  5
8F
100
AcDbEntity
  8
obrys_budynku
  6
CONTINUOUS
370
18
100
AcDb2dPolyline
 66
1
 70
128
  0
VERTEX
  5
90
100
AcDbEntity
  8
obrys_budynku
100
AcDbVertex
100
AcDb2dVertex
 10
7565320.0431638062
 20
5717963.86935149785
  0
VERTEX
  5
91
100
AcDbEntity
  8
obrys_budynku
100
AcDbVertex
100
AcDb2dVertex
 10
7565314.49673408084
 20
5717959.37305109575
  0
VERTEX
  5
92
100
AcDbEntity
  8
obrys_budynku
100
AcDbVertex
100
AcDb2dVertex
 10
7565319.02452118136
 20
5717953.78778082691
  0
SEQEND
  5
93
100
AcDbEntity
  8
obrys_budynku
  0
POLYLINE
  5
94
100
AcDbEntity
  8
obrys_budynku
  6
CONTINUOUS
370
18
100
AcDb2dPolyline
 66
1
 70
128
  0
VERTEX
  5
95
100
AcDbEntity
  8
obrys_budynku
100
AcDbVertex
100
AcDb2dVertex
 10
7565316.69510888774
 20
5717961.1551981736
  0
VERTEX
  5
96
100
AcDbEntity
  8
obrys_budynku
100
AcDbVertex
100
AcDb2dVertex
 10
7565321.22289598826
 20
5717955.56992790475
  0
SEQEND
  5
97
100
AcDbEntity
  8
obrys_budynku
  0
POLYLINE
  5
98
100
AcDbEntity
  8
obrys_budynku
  6
CONTINUOUS
370
18
100
AcDb2dPolyline
 66
1
 70
128
  0
VERTEX
  5
99
100
AcDbEntity
  8
obrys_budynku
100
AcDbVertex
100
AcDb2dVertex
 10
7565321.53362034261
 20
5717955.82182148471
  0
VERTEX
  5
9A
100
AcDbEntity
  8
obrys_budynku
100
AcDbVertex
100
AcDb2dVertex
 10
7565317.00583324209
 20
5717961.40709175356
  0
SEQEND
  5
9B
100
AcDbEntity
  8
obrys_budynku
  0
POLYLINE
  5
9C
100
AcDbEntity
  8
obrys_budynku
  6
CONTINUOUS
370
18
100
AcDb2dPolyline
 66
1
 70
128
  0
VERTEX
  5
9D
100
AcDbEntity
  8
obrys_budynku
100
AcDbVertex
100
AcDb2dVertex
 10
7565328.31587722525
 20
5717950.10745436698
  0
VERTEX
  5
9E
100
AcDbEntity
  8
obrys_budynku
100
AcDbVertex
100
AcDb2dVertex
 10
7565332.40914790146
 20
5717945.05818361044
  0
VERTEX
  5
9F
100
AcDbEntity
  8
obrys_budynku
100
AcDbVertex
100
AcDb2dVertex
 10
7565341.07058927696
 20
5717952.07971715089
  0
VERTEX
  5
A0
100
AcDbEntity
  8
obrys_budynku
100
AcDbVertex
100
AcDb2dVertex
 10
7565333.75308077782
 20
5717961.10625964403
  0
SEQEND
  5
A1
100
AcDbEntity
  8
obrys_budynku
  0
POLYLINE
  5
A2
100
AcDbEntity
  8
obrys_budynku
  6
CONTINUOUS
370
18
100
AcDb2dPolyline
 66
1
 70
128
  0
VERTEX
  5
A3
100
AcDbEntity
  8
obrys_budynku
100
AcDbVertex
100
AcDb2dVertex
 10
7565328.66544212494
 20
5717950.39083464444
  0
VERTEX
  5
A4
100
AcDbEntity
  8
obrys_budynku
100
AcDbVertex
100
AcDb2dVertex
 10
7565332.4753325209
 20
5717945.69112878572
  0
VERTEX
  5
A5
100
AcDbEntity
  8
obrys_budynku
100
AcDbVertex
100
AcDb2dVertex
 10
7565334.82130139694
 20
5717947.59292531386
  0
SEQEND
  5
A6
100
AcDbEntity
  8
obrys_budynku
  0
POLYLINE
  5
A7
100
AcDbEntity
  8
obrys_budynku
  6
CONTINUOUS
370
18
100
AcDb2dPolyline
 66
1
 70
129
  0
VERTEX
  5
A8
100
AcDbEntity
  8
obrys_budynku
100
AcDbVertex
100
AcDb2dVertex
 10
7565339.96424542554
 20
5717952.17407437321
  0
VERTEX
  5
A9
100
AcDbEntity
  8
obrys_budynku
100
AcDbVertex
100
AcDb2dVertex
 10
7565335.08587306458
 20
5717948.21934516821
  0
VERTEX
  5
AA
100
AcDbEntity
  8
obrys_budynku
100
AcDbVertex
100
AcDb2dVertex
 10
7565331.09965716116
 20
5717953.13655807357
  0
VERTEX
  5
AB
100
AcDbEntity
  8
obrys_budynku
100
AcDbVertex
100
AcDb2dVertex
 10
7565324.36470678076
 20
5717947.67676472943
  0
VERTEX
  5
AC
100
AcDbEntity
  8
obrys_budynku
100
AcDbVertex
100
AcDb2dVertex
 10
7565319.63540481683
 20
5717953.51061448082
  0
VERTEX
  5
AD
100
AcDbEntity
  8
obrys_budynku
100
AcDbVertex
100
AcDb2dVertex
 10
7565325.41487780679
 20
5717958.19583506882
  0
VERTEX
  5
AE
100
AcDbEntity
  8
obrys_budynku
100
AcDbVertex
100
AcDb2dVertex
 10
7565320.69817052223
 20
5717964.01414860226
  0
VERTEX
  5
AF
100
AcDbEntity
  8
obrys_budynku
100
AcDbVertex
100
AcDb2dVertex
 10
7565326.53202027362
 20
5717968.7434505662
  0
SEQEND
  5
B0
100
AcDbEntity
  8
obrys_budynku
  0
POLYLINE
  5
B1
100
AcDbEntity
  8
obrys_budynku
  6
CONTINUOUS
370
18
100
AcDb2dPolyline
 66
1
 70
129
  0
VERTEX
  5
B2
100
AcDbEntity
  8
obrys_budynku
100
AcDbVertex
100
AcDb2dVertex
 10
7565330.78854865115
 20
5717926.55055590905
  0
VERTEX
  5
B3
100
AcDbEntity
  8
obrys_budynku
100
AcDbVertex
100
AcDb2dVertex
 10
7565337.77984662261
 20
5717932.21816145908
  0
VERTEX
  5
B4
100
AcDbEntity
  8
obrys_budynku
100
AcDbVertex
100
AcDb2dVertex
 10
7565349.11505772267
 20
5717918.23556551524
  0
VERTEX
  5
B5
100
AcDbEntity
  8
obrys_budynku
100
AcDbVertex
100
AcDb2dVertex
 10
7565342.12375975121
 20
5717912.56795996521
  0
SEQEND
  5
B6
100
AcDbEntity
  8
obrys_budynku
  0
POLYLINE
  5
B7
100
AcDbEntity
  8
obrys_budynku
  6
CONTINUOUS
370
18
100
AcDb2dPolyline
 66
1
 70
129
  0
VERTEX
  5
B8
100
AcDbEntity
  8
obrys_budynku
100
AcDbVertex
100
AcDb2dVertex
 10
7565331.28083934356
 20
5717926.49907898065
  0
VERTEX
  5
B9
100
AcDbEntity
  8
obrys_budynku
100
AcDbVertex
100
AcDb2dVertex
 10
7565337.7283696942
 20
5717931.72587076481
  0
VERTEX
  5
BA
100
AcDbEntity
  8
obrys_budynku
100
AcDbVertex
100
AcDb2dVertex
 10
7565348.62276702933
 20
5717918.28704244178
  0
VERTEX
  5
BB
100
AcDbEntity
  8
obrys_budynku
100
AcDbVertex
100
AcDb2dVertex
 10
7565342.17523667868
 20
5717913.06025065761
  0
SEQEND
  5
BC
100
AcDbEntity
  8
obrys_budynku
  0
POLYLINE
  5
BD
100
AcDbEntity
  8
obrys_budynku
  6
CONTINUOUS
370
18
100
AcDb2dPolyline
 66
1
 70
129
  0
VERTEX
  5
BE
100
AcDbEntity
  8
obrys_budynku
100
AcDbVertex
100
AcDb2dVertex
 10
7565330.59762713872
 20
5717947.45158966165
  0
VERTEX
  5
BF
100
AcDbEntity
  8
obrys_budynku
100
AcDbVertex
100
AcDb2dVertex
 10
7565330.79182985984
 20
5717947.60902314913
  0
VERTEX
  5
C0
100
AcDbEntity
  8
obrys_budynku
100
AcDbVertex
100
AcDb2dVertex
 10
7565330.85480325576
 20
5717947.53134206031
  0
VERTEX
  5
C1
100
AcDbEntity
  8
obrys_budynku
100
AcDbVertex
100
AcDb2dVertex
 10
7565330.66060053464
 20
5717947.37390857283
  0
SEQEND
  5
C2
100
AcDbEntity
  8
obrys_budynku
  0
POLYLINE
  5
C3
100
AcDbEntity
  8
obrys_budynku
  6
CONTINUOUS
370
18
100
AcDb2dPolyline
 66
1
 70
129
  0
VERTEX
  5
C4
100
AcDbEntity
  8
obrys_budynku
100
AcDbVertex
100
AcDb2dVertex
 10
7565330.84952071961
 20
5717947.1408653073
  0
VERTEX
  5
C5
100
AcDbEntity
  8
obrys_budynku
100
AcDbVertex
100
AcDb2dVertex
 10
7565331.04372344073
 20
5717947.29829879384
  0
VERTEX
  5
C6
100
AcDbEntity
  8
obrys_budynku
100
AcDbVertex
100
AcDb2dVertex
 10
7565331.10669683572
 20
5717947.22061770596
  0
VERTEX
  5
C7
100
AcDbEntity
  8
obrys_budynku
100
AcDbVertex
100
AcDb2dVertex
 10
7565330.9124941146
 20
5717947.06318421755
  0
SEQEND
  5
C8
100
AcDbEntity
  8
obrys_budynku
  0
POLYLINE
  5
C9
100
AcDbEntity
  8
obrys_budynku
  6
CONTINUOUS
370
18
100
AcDb2dPolyline
 66
1
 70
129
  0
VERTEX
  5
CA
100
AcDbEntity
  8
obrys_budynku
100
AcDbVertex
100
AcDb2dVertex
 10
7565331.10141429957
 20
5717946.83014095295
  0
VERTEX
  5
CB
100
AcDbEntity
  8
obrys_budynku
100
AcDbVertex
100
AcDb2dVertex
 10
7565331.29561702069
 20
5717946.98757444043
  0
VERTEX
  5
CC
100
AcDbEntity
  8
obrys_budynku
100
AcDbVertex
100
AcDb2dVertex
 10
7565331.35859041568
 20
5717946.90989335161
  0
VERTEX
  5
CD
100
AcDbEntity
  8
obrys_budynku
100
AcDbVertex
100
AcDb2dVertex
 10
7565331.16438769456
 20
5717946.75245986413
  0
SEQEND
  5
CE
100
AcDbEntity
  8
obrys_budynku
  0
POLYLINE
  5
CF
100
AcDbEntity
  8
obrys_budynku
  6
CONTINUOUS
370
18
100
AcDb2dPolyline
 66
1
 70
129
  0
VERTEX
  5
D0
100
AcDbEntity
  8
obrys_budynku
100
AcDbVertex
100
AcDb2dVertex
 10
7565331.35330788046
 20
5717946.5194165986
  0
VERTEX
  5
D1
100
AcDbEntity
  8
obrys_budynku
100
AcDbVertex
100
AcDb2dVertex
 10
7565331.54751060065
 20
5717946.67685008608
  0
VERTEX
  5
D2
100
AcDbEntity
  8
obrys_budynku
100
AcDbVertex
100
AcDb2dVertex
 10
7565331.61048399564
 20
5717946.59916899819
  0
VERTEX
  5
D3
100
AcDbEntity
  8
obrys_budynku
100
AcDbVertex
100
AcDb2dVertex
 10
7565331.41628127359
 20
5717946.44173550978
  0
SEQEND
  5
D4
100
AcDbEntity
  8
obrys_budynku
  0
POLYLINE
  5
D5
100
AcDbEntity
  8
obrys_budynku
  6
CONTINUOUS
370
18
100
AcDb2dPolyline
 66
1
 70
129
  0
VERTEX
  5
D6
100
AcDbEntity
  8
obrys_budynku
100
AcDbVertex
100
AcDb2dVertex
 10
7565331.60520145856
 20
5717946.20869224425
  0
VERTEX
  5
D7
100
AcDbEntity
  8
obrys_budynku
100
AcDbVertex
100
AcDb2dVertex
 10
7565331.79940418061
 20
5717946.36612573173
  0
VERTEX
  5
D8
100
AcDbEntity
  8
obrys_budynku
100
AcDbVertex
100
AcDb2dVertex
 10
7565331.8623775756
 20
5717946.28844464291
  0
VERTEX
  5
D9
100
AcDbEntity
  8
obrys_budynku
100
AcDbVertex
100
AcDb2dVertex
 10
7565331.66817485355
 20
5717946.13101115637
  0
SEQEND
  5
DA
100
AcDbEntity
  8
obrys_budynku
  0
POLYLINE
  5
DB
100
AcDbEntity
  8
obrys_budynku
  6
CONTINUOUS
370
18
100
AcDb2dPolyline
 66
1
 70
129
  0
VERTEX
  5
DC
100
AcDbEntity
  8
obrys_budynku
100
AcDbVertex
100
AcDb2dVertex
 10
7565314.57120394334
 20
5717958.72539822571
  0
VERTEX
  5
DD
100
AcDbEntity
  8
obrys_budynku
100
AcDbVertex
100
AcDb2dVertex
 10
7565314.76540666539
 20
5717958.88283171318
  0
VERTEX
  5
DE
100
AcDbEntity
  8
obrys_budynku
100
AcDbVertex
100
AcDb2dVertex
 10
7565314.82838006038
 20
5717958.8051506253
  0
VERTEX
  5
DF
100
AcDbEntity
  8
obrys_budynku
100
AcDbVertex
100
AcDb2dVertex
 10
7565314.63417733926
 20
5717958.64771713689
  0
SEQEND
  5
E0
100
AcDbEntity
  8
obrys_budynku
  0
POLYLINE
  5
E1
100
AcDbEntity
  8
obrys_budynku
  6
CONTINUOUS
370
18
100
AcDb2dPolyline
 66
1
 70
129
  0
VERTEX
  5
E2
100
AcDbEntity
  8
obrys_budynku
100
AcDbVertex
100
AcDb2dVertex
 10
7565314.74752944987
 20
5717958.5078911772
  0
VERTEX
  5
E3
100
AcDbEntity
  8
obrys_budynku
100
AcDbVertex
100
AcDb2dVertex
 10
7565314.94173217192
 20
5717958.66532466561
  0
VERTEX
  5
E4
100
AcDbEntity
  8
obrys_budynku
100
AcDbVertex
100
AcDb2dVertex
 10
7565315.00470556598
 20
5717958.58764357585
  0
VERTEX
  5
E5
100
AcDbEntity
  8
obrys_budynku
100
AcDbVertex
100
AcDb2dVertex
 10
7565314.81050284486
 20
5717958.43021008931
  0
SEQEND
  5
E6
100
AcDbEntity
  8
obrys_budynku
  0
POLYLINE
  5
E7
100
AcDbEntity
  8
obrys_budynku
  6
CONTINUOUS
370
18
100
AcDb2dPolyline
 66
1
 70
129
  0
VERTEX
  5
E8
100
AcDbEntity
  8
obrys_budynku
100
AcDbVertex
100
AcDb2dVertex
 10
7565314.92385495454
 20
5717958.29038412962
  0
VERTEX
  5
E9
100
AcDbEntity
  8
obrys_budynku
100
AcDbVertex
100
AcDb2dVertex
 10
7565315.11805767845
 20
5717958.44781761803
  0
VERTEX
  5
EA
100
AcDbEntity
  8
obrys_budynku
100
AcDbVertex
100
AcDb2dVertex
 10
7565315.18103107158
 20
5717958.37013652828
  0
VERTEX
  5
EB
100
AcDbEntity
  8
obrys_budynku
100
AcDbVertex
100
AcDb2dVertex
 10
7565314.98682835046
 20
5717958.2127030408
  0
SEQEND
  5
EC
100
AcDbEntity
  8
obrys_budynku
  0
POLYLINE
  5
ED
100
AcDbEntity
  8
obrys_budynku
  6
CONTINUOUS
370
18
100
AcDb2dPolyline
 66
1
 70
129
  0
VERTEX
  5
EE
100
AcDbEntity
  8
obrys_budynku
100
AcDbVertex
100
AcDb2dVertex
 10
7565315.10018046107
 20
5717958.07287708204
  0
VERTEX
  5
EF
100
AcDbEntity
  8
obrys_budynku
100
AcDbVertex
100
AcDb2dVertex
 10
7565315.29438318312
 20
5717958.23031056859
  0
VERTEX
  5
F0
100
AcDbEntity
  8
obrys_budynku
100
AcDbVertex
100
AcDb2dVertex
 10
7565315.35735657811
 20
5717958.1526294807
  0
VERTEX
  5
F1
100
AcDbEntity
  8
obrys_budynku
100
AcDbVertex
100
AcDb2dVertex
 10
7565315.16315385699
 20
5717957.99519599322
  0
SEQEND
  5
F2
100
AcDbEntity
  8
obrys_budynku
  0
POLYLINE
  5
F3
100
AcDbEntity
  8
obrys_budynku
  6
CONTINUOUS
370
18
100
AcDb2dPolyline
 66
1
 70
129
  0
VERTEX
  5
F4
100
AcDbEntity
  8
obrys_budynku
100
AcDbVertex
100
AcDb2dVertex
 10
7565315.2765059676
 20
5717957.85537003446
  0
VERTEX
  5
F5
100
AcDbEntity
  8
obrys_budynku
100
AcDbVertex
100
AcDb2dVertex
 10
7565315.47070868965
 20
5717958.01280352101
  0
VERTEX
  5
F6
100
AcDbEntity
  8
obrys_budynku
100
AcDbVertex
100
AcDb2dVertex
 10
7565315.53368208371
 20
5717957.93512243312
  0
VERTEX
  5
F7
100
AcDbEntity
  8
obrys_budynku
100
AcDbVertex
100
AcDb2dVertex
 10
7565315.33947936259
 20
5717957.77768894564
  0
SEQEND
  5
F8
100
AcDbEntity
  8
obrys_budynku
  0
POLYLINE
  5
F9
100
AcDbEntity
  8
obrys_budynku
  6
CONTINUOUS
370
18
100
AcDb2dPolyline
 66
1
 70
129
  0
VERTEX
  5
FA
100
AcDbEntity
  8
obrys_budynku
100
AcDbVertex
100
AcDb2dVertex
 10
7565315.4528314732
 20
5717957.63786298595
  0
VERTEX
  5
FB
100
AcDbEntity
  8
obrys_budynku
100
AcDbVertex
100
AcDb2dVertex
 10
7565315.64703419525
 20
5717957.79529647343
  0
VERTEX
  5
FC
100
AcDbEntity
  8
obrys_budynku
100
AcDbVertex
100
AcDb2dVertex
 10
7565315.71000759024
 20
5717957.71761538461
  0
VERTEX
  5
FD
100
AcDbEntity
  8
obrys_budynku
100
AcDbVertex
100
AcDb2dVertex
 10
7565315.51580486912
 20
5717957.56018189713
  0
SEQEND
  5
FE
100
AcDbEntity
  8
obrys_budynku
  0
POLYLINE
  5
FF
100
AcDbEntity
  8
obrys_budynku
  6
CONTINUOUS
370
18
100
AcDb2dPolyline
 66
1
 70
129
  0
VERTEX
  5
100
100
AcDbEntity
  8
obrys_budynku
100
AcDbVertex
100
AcDb2dVertex
 10
7565315.62915697973
 20
5717957.42035593838
  0
VERTEX
  5
101
100
AcDbEntity
  8
obrys_budynku
100
AcDbVertex
100
AcDb2dVertex
 10
7565315.82335970178
 20
5717957.57778942492
  0
VERTEX
  5
102
100
AcDbEntity
  8
obrys_budynku
100
AcDbVertex
100
AcDb2dVertex
 10
7565315.88633309584
 20
5717957.50010833703
  0
VERTEX
  5
103
100
AcDbEntity
  8
obrys_budynku
100
AcDbVertex
100
AcDb2dVertex
 10
7565315.69213037472
 20
5717957.34267484862
  0
SEQEND
  5
104
100
AcDbEntity
  8
obrys_budynku
  0
POLYLINE
  5
105
100
AcDbEntity
  8
obrys_budynku
  6
CONTINUOUS
370
18
100
AcDb2dPolyline
 66
1
 70
129
  0
VERTEX
  5
106
100
AcDbEntity
  8
obrys_budynku
100
AcDbVertex
100
AcDb2dVertex
 10
7565315.80548248533
 20
5717957.20284888986
  0
VERTEX
  5
107
100
AcDbEntity
  8
obrys_budynku
100
AcDbVertex
100
AcDb2dVertex
 10
7565315.99968520738
 20
5717957.36028237734
  0
VERTEX
  5
108
100
AcDbEntity
  8
obrys_budynku
100
AcDbVertex
100
AcDb2dVertex
 10
7565316.06265860144
 20
5717957.28260128945
  0
VERTEX
  5
109
100
AcDbEntity
  8
obrys_budynku
100
AcDbVertex
100
AcDb2dVertex
 10
7565315.86845588032
 20
5717957.12516780104
  0
SEQEND
  5
10A
100
AcDbEntity
  8
obrys_budynku
  0
POLYLINE
  5
10B
100
AcDbEntity
  8
obrys_budynku
  6
CONTINUOUS
370
18
100
AcDb2dPolyline
 66
1
 70
129
  0
VERTEX
  5
10C
100
AcDbEntity
  8
obrys_budynku
100
AcDbVertex
100
AcDb2dVertex
 10
7565315.31831029337
 20
5717960.56687374972
  0
VERTEX
  5
10D
100
AcDbEntity
  8
obrys_budynku
100
AcDbVertex
100
AcDb2dVertex
 10
7565316.75541043188
 20
5717961.7318815561
  0
VERTEX
  5
10E
100
AcDbEntity
  8
obrys_budynku
100
AcDbVertex
100
AcDb2dVertex
 10
7565317.01360135246
 20
5717961.41338909324
  0
VERTEX
  5
10F
100
AcDbEntity
  8
obrys_budynku
100
AcDbVertex
100
AcDb2dVertex
 10
7565315.57650121208
 20
5717960.24838128593
  0
SEQEND
  5
110
100
AcDbEntity
  8
obrys_budynku
  0
POLYLINE
  5
111
100
AcDbEntity
  8
Osie
  6
CONTINUOUS
370
18
100
AcDb2dPolyline
 66
1
 70
128
  0
VERTEX
  5
112
100
AcDbEntity
  8
Osie
100
AcDbVertex
100
AcDb2dVertex
 10
7565326.56442883052
 20
5717969.12406407576
  0
VERTEX
  5
113
100
AcDbEntity
  8
Osie
100
AcDbVertex
100
AcDb2dVertex
 10
7565314.52870665211
 20
5717959.35661986936
  0
SEQEND
  5
114
100
AcDbEntity
  8
Osie
  0
POLYLINE
  5
115
100
AcDbEntity
  8
Osie
  6
CONTINUOUS
370
18
100
AcDb2dPolyline
 66
1
 70
128
  0
VERTEX
  5
116
100
AcDbEntity
  8
Osie
100
AcDbVertex
100
AcDb2dVertex
 10
7565340.36371430941
 20
5717952.11797084846
  0
VERTEX
  5
117
100
AcDbEntity
  8
Osie
100
AcDbVertex
100
AcDb2dVertex
 10
7565326.56442883052
 20
5717969.12406407576
  0
SEQEND
  5
118
100
AcDbEntity
  8
Osie
  0
POLYLINE
  5
119
100
AcDbEntity
  8
Osie
  6
CONTINUOUS
370
18
100
AcDb2dPolyline
 66
1
 70
128
  0
VERTEX
  5
11A
100
AcDbEntity
  8
Osie
100
AcDbVertex
100
AcDb2dVertex
 10
7565328.32821701281
 20
5717942.35122326016
  0
VERTEX
  5
11B
100
AcDbEntity
  8
Osie
100
AcDbVertex
100
AcDb2dVertex
 10
7565314.52870665211
 20
5717959.35661986936
  0
SEQEND
  5
11C
100
AcDbEntity
  8
Osie
  0
POLYLINE
  5
11D
100
AcDbEntity
  8
Osie
  6
CONTINUOUS
370
18
100
AcDb2dPolyline
 66
1
 70
128
  0
VERTEX
  5
11E
100
AcDbEntity
  8
Osie
100
AcDbVertex
100
AcDb2dVertex
 10
7565328.32821701281
 20
5717942.35122326016
  0
VERTEX
  5
11F
100
AcDbEntity
  8
Osie
100
AcDbVertex
100
AcDb2dVertex
 10
7565340.36371430941
 20
5717952.11797084846
  0
SEQEND
  5
120
100
AcDbEntity
  8
Osie
  0
POLYLINE
  5
121
100
AcDbEntity
  8
Osie
  6
CONTINUOUS
370
18
100
AcDb2dPolyline
 66
1
 70
128
  0
VERTEX
  5
122
100
AcDbEntity
  8
Osie
100
AcDbVertex
100
AcDb2dVertex
 10
7565324.32676046062
 20
5717947.28177906107
  0
VERTEX
  5
123
100
AcDbEntity
  8
Osie
100
AcDbVertex
100
AcDb2dVertex
 10
7565336.36276046094
 20
5717957.04877906106
  0
SEQEND
  5
124
100
AcDbEntity
  8
Osie
  0
POLYLINE
  5
125
100
AcDbEntity
  8
Osie
  6
CONTINUOUS
370
18
100
AcDb2dPolyline
 66
1
 70
128
  0
VERTEX
  5
126
100
AcDbEntity
  8
Osie
100
AcDbVertex
100
AcDb2dVertex
 10
7565319.25456247386
 20
5717953.532830148
  0
VERTEX
  5
127
100
AcDbEntity
  8
Osie
100
AcDbVertex
100
AcDb2dVertex
 10
7565331.29056247417
 20
5717963.299830148
  0
SEQEND
  5
128
100
AcDbEntity
  8
Osie
  0
POLYLINE
  5
129
100
AcDbEntity
  8
Osie
  6
CONTINUOUS
370
18
100
AcDb2dPolyline
 66
1
 70
128
  0
VERTEX
  5
12A
100
AcDbEntity
  8
Osie
100
AcDbVertex
100
AcDb2dVertex
 10
7565337.52976723202
 20
5717949.81808160618
  0
VERTEX
  5
12B
100
AcDbEntity
  8
Osie
100
AcDbVertex
100
AcDb2dVertex
 10
7565323.7297672322
 20
5717966.82408160623
  0
SEQEND
  5
12C
100
AcDbEntity
  8
Osie
  0
POLYLINE
  5
12D
100
AcDbEntity
  8
Osie
  6
CONTINUOUS
370
18
100
AcDb2dPolyline
 66
1
 70
128
  0
VERTEX
  5
12E
100
AcDbEntity
  8
Osie
100
AcDbVertex
100
AcDb2dVertex
 10
7565335.04519318976
 20
5717947.80163318943
  0
VERTEX
  5
12F
100
AcDbEntity
  8
Osie
100
AcDbVertex
100
AcDb2dVertex
 10
7565321.24519318994
 20
5717964.80763318948
  0
SEQEND
  5
130
100
AcDbEntity
  8
Osie
  0
POLYLINE
  5
131
100
AcDbEntity
  8
Osie
  6
CONTINUOUS
370
18
100
AcDb2dPolyline
 66
1
 70
128
  0
VERTEX
  5
132
100
AcDbEntity
  8
Osie
100
AcDbVertex
100
AcDb2dVertex
 10
7565334.11319744587
 20
5717947.04586244654
  0
VERTEX
  5
133
100
AcDbEntity
  8
Osie
100
AcDbVertex
100
AcDb2dVertex
 10
7565320.31319744606
 20
5717964.05186244659
  0
SEQEND
  5
134
100
AcDbEntity
  8
Osie
  0
POLYLINE
  5
135
100
AcDbEntity
  8
Osie
  6
CONTINUOUS
370
18
100
AcDb2dPolyline
 66
1
 70
128
  0
VERTEX
  5
136
100
AcDbEntity
  8
Osie
100
AcDbVertex
100
AcDb2dVertex
 10
7565333.25884765852
 20
5717946.35287390929
  0
VERTEX
  5
137
100
AcDbEntity
  8
Osie
100
AcDbVertex
100
AcDb2dVertex
 10
7565319.45884765871
 20
5717963.35887390934
  0
SEQEND
  5
138
100
AcDbEntity
  8
Osie
  0
POLYLINE
  5
139
100
AcDbEntity
  8
Osie
  6
L_0_03
370
13
100
AcDb2dPolyline
 66
1
 70
128
  0
VERTEX
  5
13A
100
AcDbEntity
  8
Osie
100
AcDbVertex
100
AcDb2dVertex
 10
7565340.81599999964
 20
5717952.09200000018
  0
VERTEX
  5
13B
100
AcDbEntity
  8
Osie
100
AcDbVertex
100
AcDb2dVertex
 10
7565345.47652120888
 20
5717955.86983820237
  0
SEQEND
  5
13C
100
AcDbEntity
  8
Osie
  0
POLYLINE
  5
13D
100
AcDbEntity
  8
POMOCNICZE
  6
CONTINUOUS
370
13
100
AcDb2dPolyline
 66
1
 70
128
  0
VERTEX
  5
13E
100
AcDbEntity
  8
POMOCNICZE
100
AcDbVertex
100
AcDb2dVertex
 10
7565340.60236542299
 20
5717951.70014412701
  0
VERTEX
  5
13F
100
AcDbEntity
  8
POMOCNICZE
100
AcDbVertex
100
AcDb2dVertex
 10
7565341.35804616287
 20
5717950.76797106396
  0
SEQEND
  5
140
100
AcDbEntity
  8
POMOCNICZE
  0
POLYLINE
  5
141
100
AcDbEntity
  8
POMOCNICZE
  6
CONTINUOUS
370
13
100
AcDb2dPolyline
 66
1
 70
129
  0
VERTEX
  5
142
100
AcDbEntity
  8
POMOCNICZE
100
AcDbVertex
100
AcDb2dVertex
 10
7565319.85424362123
 20
5717964.10239476431
  0
VERTEX
  5
143
100
AcDbEntity
  8
POMOCNICZE
100
AcDbVertex
100
AcDb2dVertex
 10
7565323.4420044506
 20
5717967.01086945273
  0
VERTEX
  5
144
100
AcDbEntity
  8
POMOCNICZE
100
AcDbVertex
100
AcDb2dVertex
 10
7565323.31605766062
 20
5717967.16623162944
  0
VERTEX
  5
145
100
AcDbEntity
  8
POMOCNICZE
100
AcDbVertex
100
AcDb2dVertex
 10
7565324.86301678419
 20
5717968.42029835004
  0
VERTEX
  5
146
100
AcDbEntity
  8
POMOCNICZE
100
AcDbVertex
100
AcDb2dVertex
 10
7565324.9889635751
 20
5717968.2649361724
  0
VERTEX
  5
147
100
AcDbEntity
  8
POMOCNICZE
100
AcDbVertex
100
AcDb2dVertex
 10
7565326.62026643567
 20
5717969.58737746812
  0
VERTEX
  5
148
100
AcDbEntity
  8
POMOCNICZE
100
AcDbVertex
100
AcDb2dVertex
 10
7565329.79412554484
 20
5717965.67225060333
  0
VERTEX
  5
149
100
AcDbEntity
  8
POMOCNICZE
100
AcDbVertex
100
AcDb2dVertex
 10
7565329.80189365055
 20
5717965.67854794394
  0
VERTEX
  5
14A
100
AcDbEntity
  8
POMOCNICZE
100
AcDbVertex
100
AcDb2dVertex
 10
7565332.6923724832
 20
5717962.1129859779
  0
VERTEX
  5
14B
100
AcDbEntity
  8
POMOCNICZE
100
AcDbVertex
100
AcDb2dVertex
 10
7565332.83996655233
 20
5717962.23263542913
  0
VERTEX
  5
14C
100
AcDbEntity
  8
POMOCNICZE
100
AcDbVertex
100
AcDb2dVertex
 10
7565333.75308077782
 20
5717961.10625964403
  0
VERTEX
  5
14D
100
AcDbEntity
  8
POMOCNICZE
100
AcDbVertex
100
AcDb2dVertex
 10
7565333.59771860112
 20
5717960.98031285405
  0
VERTEX
  5
14E
100
AcDbEntity
  8
POMOCNICZE
100
AcDbVertex
100
AcDb2dVertex
 10
7565340.81594043691
 20
5717952.09212555178
  0
VERTEX
  5
14F
100
AcDbEntity
  8
POMOCNICZE
100
AcDbVertex
100
AcDb2dVertex
 10
7565334.9976269044
 20
5717947.37541826721
  0
VERTEX
  5
150
100
AcDbEntity
  8
POMOCNICZE
100
AcDbVertex
100
AcDb2dVertex
 10
7565331.01141100097
 20
5717952.29263117444
  0
VERTEX
  5
151
100
AcDbEntity
  8
POMOCNICZE
100
AcDbVertex
100
AcDb2dVertex
 10
7565327.3215592904
 20
5717949.30139490869
  0
VERTEX
  5
152
100
AcDbEntity
  8
POMOCNICZE
100
AcDbVertex
100
AcDb2dVertex
 10
7565327.34045130946
 20
5717949.2780905813
  0
VERTEX
  5
153
100
AcDbEntity
  8
POMOCNICZE
100
AcDbVertex
100
AcDb2dVertex
 10
7565324.27204831317
 20
5717946.79064148106
  0
VERTEX
  5
154
100
AcDbEntity
  8
POMOCNICZE
100
AcDbVertex
100
AcDb2dVertex
 10
7565322.15614223946
 20
5717949.40072605945
  0
VERTEX
  5
155
100
AcDbEntity
  8
POMOCNICZE
100
AcDbVertex
100
AcDb2dVertex
 10
7565322.02408438735
 20
5717949.29367128666
  0
VERTEX
  5
156
100
AcDbEntity
  8
POMOCNICZE
100
AcDbVertex
100
AcDb2dVertex
 10
7565321.07948346436
 20
5717950.45888761617
  0
VERTEX
  5
157
100
AcDbEntity
  8
POMOCNICZE
100
AcDbVertex
100
AcDb2dVertex
 10
7565321.23484564107
 20
5717950.58483440522
  0
VERTEX
  5
158
100
AcDbEntity
  8
POMOCNICZE
100
AcDbVertex
100
AcDb2dVertex
 10
7565318.7914779149
 20
5717953.59886064194
  0
VERTEX
  5
159
100
AcDbEntity
  8
POMOCNICZE
100
AcDbVertex
100
AcDb2dVertex
 10
7565324.57095090579
 20
5717958.28408122901
  0
SEQEND
  5
15A
100
AcDbEntity
  8
POMOCNICZE
  0
TEXT
  5
15B
100
AcDbEntity
  8
Numery_dzialek
370
20
100
AcDbText
 10
7565292.39999999851
 20
5717945.69999999832
 40
0.50
  1
13-20/2
 50
0.00
 41
0.66
  7
STANDARD
 72
0
 11
7565292.39999999851
 21
5717946.19999999832
100
AcDbText
 73
3
  0
TEXT
  5
15C
100
AcDbEntity
  8
Numery_dzialek
370
20
100
AcDbText
 10
7565352.71999999601
 20
5717874.32999999728
 40
0.50
  1
13-21/5
 50
0.00
 41
0.66
  7
STANDARD
 72
0
 11
7565352.71999999601
 21
5717874.82999999728
100
AcDbText
 73
3
  0
TEXT
  5
15D
100
AcDbEntity
  8
Numery_dzialek
370
20
100
AcDbText
 10
7565346.04516360071
 20
5717882.47292586044
 40
0.50
  1
13-21/6
 50
0.00
 41
0.66
  7
STANDARD
 72
0
 11
7565346.04516360071
 21
5717882.97292586043
100
AcDbText
 73
3
  0
TEXT
  5
15E
100
AcDbEntity
  8
Numery_dzialek
370
20
100
AcDbText
 10
7565369.02999999654
 20
5717884.69999999739
 40
0.50
  1
13-23/1
 50
0.00
 41
0.66
  7
STANDARD
 72
0
 11
7565369.02999999654
 21
5717885.19999999739
100
AcDbText
 73
3
  0
TEXT
  5
15F
100
AcDbEntity
  8
Numery_dzialek
370
20
100
AcDbText
 10
7565361.9199999962
 20
5717888.01999999676
 40
0.50
  1
13-23/2
 50
0.00
 41
0.66
  7
STANDARD
 72
0
 11
7565361.9199999962
 21
5717888.51999999676
100
AcDbText
 73
3
  0
TEXT
  5
160
100
AcDbEntity
  8
Numery_dzialek
370
20
100
AcDbText
 10
7565387.52999999654
 20
5717896.5699999975
 40
0.50
  1
13-22/3
 50
0.00
 41
0.66
  7
STANDARD
 72
0
 11
7565387.52999999654
 21
5717897.0699999975
100
AcDbText
 73
3
  0
TEXT
  5
161
100
AcDbEntity
  8
Numery_dzialek
370
20
100
AcDbText
 10
7565275.81808715034
 20
5718013.28789089993
 40
0.50
  1
13-22/4
 50
0.00
 41
0.66
  7
STANDARD
 72
0
 11
7565275.81808715034
 21
5718013.78789089993
100
AcDbText
 73
3
  0
TEXT
  5
162
100
AcDbEntity
  8
Numery_dzialek
370
20
100
AcDbText
 10
7565405.87626891024
 20
5717907.54325647932
 40
0.50
  1
13-22/5
 50
0.00
 41
0.66
  7
STANDARD
 72
0
 11
7565405.87626891024
 21
5717908.04325647932
100
AcDbText
 73
3
  0
TEXT
  5
163
100
AcDbEntity
  8
Numery_dzialek
370
20
100
AcDbText
 10
7565306.69243297074
 20
5718021.39240668062
 40
0.50
  1
13-22/6
 50
0.00
 41
0.66
  7
STANDARD
 72
0
 11
7565306.69243297074
 21
5718021.89240668062
100
AcDbText
 73
3
  0
TEXT
  5
164
100
AcDbEntity
  8
Numery_dzialek
370
20
100
AcDbText
 10
7565276.90913201962
 20
5717946.287688802
 40
0.50
  1
13-20/1
 50
0.00
 41
0.66
  7
STANDARD
 72
0
 11
7565276.90913201962
 21
5717946.787688802
100
AcDbText
 73
3
  0
TEXT
  5
165
100
AcDbEntity
  8
Numery_dzialek
370
20
100
AcDbText
 10
7565402.1625093827
 20
5717870.56686278246
 40
0.50
  1
13-566/1
 50
0.00
 41
0.66
  7
STANDARD
 72
0
 11
7565402.1625093827
 21
5717871.06686278246
100
AcDbText
 73
3
  0
TEXT
  5
166
100
AcDbEntity
  8
Numery_dzialek
370
20
100
AcDbText
 10
7565388.2306401683
 20
5717876.93557191081
 40
0.50
  1
13-383/2
 50
0.00
 41
0.66
  7
STANDARD
 72
0
 11
7565388.2306401683
 21
5717877.43557191081
100
AcDbText
 73
3
  0
TEXT
  5
167
100
AcDbEntity
  8
Numery_dzialek
370
20
100
AcDbText
 10
7565361.85157541279
 20
5717845.40559531096
 40
0.50
  1
13-567/3
 50
0.00
 41
0.66
  7
STANDARD
 72
0
 11
7565361.85157541279
 21
5717845.90559531096
100
AcDbText
 73
3
  0
TEXT
  5
168
100
AcDbEntity
  8
Numery_dzialek
370
20
100
AcDbText
 10
7565338.76999999583
 20
5717865.48999999743
 40
0.50
  1
13-21/3
 50
0.00
 41
0.66
  7
STANDARD
 72
0
 11
7565338.76999999583
 21
5717865.98999999743
100
AcDbText
 73
3
  0
TEXT
  5
169
100
AcDbEntity
  8
Numery_dzialek
370
20
100
AcDbText
 10
7565327.45999999624
 20
5717878.72999999672
 40
0.50
  1
13-21/4
 50
0.00
 41
0.66
  7
STANDARD
 72
0
 11
7565327.45999999624
 21
5717879.22999999672
100
AcDbText
 73
3
  0
TEXT
  5
16A
100
AcDbEntity
  8
Osie
370
15
100
AcDbText
 10
7565327.64029457141
 20
5717956.61835109815
 40
0.38
  1
-26.831-
 50
-86.20
 41
0.66
  7
STANDARD
 72
1
 11
7565327.56527481321
 21
5717955.86171576008
100
AcDbText
 73
1
  0
TEXT
  5
16B
100
AcDbEntity
  8
Osie
370
15
100
AcDbText
 10
7565325.77798118629
 20
5717956.26295033097
 40
0.38
  1
-26.830-
 50
-15.70
 41
0.66
  7
STANDARD
 72
1
 11
7565326.46617494058
 21
5717955.93966352846
100
AcDbText
 73
1
  0
TEXT
  5
16C
100
AcDbEntity
  8
Osie
370
15
100
AcDbText
 10
7565325.9718224816
 20
5717945.37308113929
 40
0.38
  1
-6.350-
 50
-50.90
 41
0.66
  7
STANDARD
 72
1
 11
7565326.2886976786
 21
5717944.78496620897
100
AcDbText
 73
1
  0
TEXT
  5
16D
100
AcDbEntity
  8
Osie
370
15
100
AcDbText
 10
7565321.43532248121
 20
5717950.9640811393
 40
0.38
  1
-8.050-
 50
-50.90
 41
0.66
  7
STANDARD
 72
1
 11
7565321.7521976782
 21
5717950.37596620899
100
AcDbText
 73
1
  0
TEXT
  5
16E
100
AcDbEntity
  8
Osie
370
15
100
AcDbText
 10
7565316.53632248193
 20
5717957.00158113986
 40
0.38
  1
-7.500-
 50
-50.90
 41
0.66
  7
STANDARD
 72
1
 11
7565316.85319767892
 21
5717956.41346620955
100
AcDbText
 73
1
  0
TEXT
  5
16F
100
AcDbEntity
  8
Osie
370
15
100
AcDbText
 10
7565328.57132248208
 20
5717966.76858113892
 40
0.38
  1
-7.500-
 50
-50.90
 41
0.66
  7
STANDARD
 72
1
 11
7565328.88819767907
 21
5717966.18046620861
100
AcDbText
 73
1
  0
TEXT
  5
170
100
AcDbEntity
  8
Osie
370
15
100
AcDbText
 10
7565333.47082248237
 20
5717960.7310811393
 40
0.38
  1
-8.050-
 50
-50.90
 41
0.66
  7
STANDARD
 72
1
 11
7565333.78769767936
 21
5717960.14296620898
100
AcDbText
 73
1
  0
TEXT
  5
171
100
AcDbEntity
  8
Osie
370
15
100
AcDbText
 10
7565338.00782248192
 20
5717955.14008113928
 40
0.38
  1
-6.350-
 50
-50.90
 41
0.66
  7
STANDARD
 72
1
 11
7565338.32469767891
 21
5717954.55196620896
100
AcDbText
 73
1
  0
TEXT
  5
172
100
AcDbEntity
  8
Osie
370
15
100
AcDbText
 10
7565338.39041886106
 20
5717950.61232248228
 40
0.38
  1
-3.650-
 50
-320.90
 41
0.66
  7
STANDARD
 72
1
 11
7565338.97853379138
 21
5717950.92919767927
100
AcDbText
 73
1
  0
TEXT
  5
173
100
AcDbEntity
  8
Osie
370
15
100
AcDbText
 10
7565335.73091886006
 20
5717948.45432248246
 40
0.38
  1
-3.200-
 50
-320.90
 41
0.66
  7
STANDARD
 72
1
 11
7565336.31903379038
 21
5717948.77119767945
100
AcDbText
 73
1
  0
TEXT
  5
174
100
AcDbEntity
  8
Osie
370
15
100
AcDbText
 10
7565333.12941886019
 20
5717946.34382248204
 40
0.38
  1
-1.100-
 50
-320.90
 41
0.66
  7
STANDARD
 72
1
 11
7565333.71753379051
 21
5717946.66069767904
100
AcDbText
 73
1
  0
TEXT
  5
175
100
AcDbEntity
  8
Osie
370
15
100
AcDbText
 10
7565334.02179893292
 20
5717947.06929444056
 40
0.38
  1
-1.200-
 50
-321.00
 41
0.66
  7
STANDARD
 72
1
 11
7565334.61046601925
 21
5717947.38514270261
100
AcDbText
 73
1
  0
TEXT
  5
176
100
AcDbEntity
  8
Osie
370
15
100
AcDbText
 10
7565330.23691886012
 20
5717943.99632248189
 40
0.38
  1
-6.351-
 50
-320.90
 41
0.66
  7
STANDARD
 72
1
 11
7565330.82503379043
 21
5717944.31319767889
100
AcDbText
 73
1
  0
TEXT
  5
177
100
AcDbEntity
  8
Osie
370
15
100
AcDbText
 10
7565316.4369188603
 20
5717961.00282248203
 40
0.38
  1
-6.350-
 50
-320.90
 41
0.66
  7
STANDARD
 72
1
 11
7565317.02503379062
 21
5717961.31969767902
100
AcDbText
 73
1
  0
TEXT
  5
178
100
AcDbEntity
  8
Osie
370
15
100
AcDbText
 10
7565319.32929893304
 20
5717963.34979443997
 40
0.38
  1
-1.101-
 50
-321.00
 41
0.66
  7
STANDARD
 72
1
 11
7565319.91796601936
 21
5717963.66564270202
100
AcDbText
 73
1
  0
TEXT
  5
179
100
AcDbEntity
  8
Osie
370
15
100
AcDbText
 10
7565320.22291886061
 20
5717964.07332248148
 40
0.38
  1
-1.199-
 50
-320.90
 41
0.66
  7
STANDARD
 72
1
 11
7565320.81103379093
 21
5717964.39019767847
100
AcDbText
 73
1
  0
TEXT
  5
17A
100
AcDbEntity
  8
Osie
370
15
100
AcDbText
 10
7565321.93091886118
 20
5717965.45982248243
 40
0.38
  1
-3.201-
 50
-320.90
 41
0.66
  7
STANDARD
 72
1
 11
7565322.5190337915
 21
5717965.77669767942
100
AcDbText
 73
1
  0
TEXT
  5
17B
100
AcDbEntity
  8
Osie
370
15
100
AcDbText
 10
7565324.59041886032
 20
5717967.6183224814
 40
0.38
  1
-3.650-
 50
-320.90
 41
0.66
  7
STANDARD
 72
1
 11
7565325.17853379063
 21
5717967.93519767839
100
AcDbText
 73
1
  0
TEXT
  5
17C
100
AcDbEntity
  8
Osie
370
35
100
AcDbText
 10
7565341.1312499959
 20
5717950.27249999717
 40
0.88
  1
6
 50
0.00
 41
0.66
  7
STANDARD
 72
1
 11
7565341.3499999959
 21
5717950.70999999717
100
AcDbText
 73
2
  0
TEXT
  5
17D
100
AcDbEntity
  8
Osie
370
35
100
AcDbText
 10
7565325.65124999639
 20
5717969.73249999713
 40
0.88
  1
6
 50
0.00
 41
0.66
  7
STANDARD
 72
1
 11
7565325.86999999639
 21
5717970.16999999713
100
AcDbText
 73
2
  0
TEXT
  5
17E
100
AcDbEntity
  8
Osie
370
35
100
AcDbText
 10
7565322.74124999624
 20
5717967.40249999706
 40
0.88
  1
5
 50
0.00
 41
0.66
  7
STANDARD
 72
1
 11
7565322.95999999624
 21
5717967.83999999706
100
AcDbText
 73
2
  0
TEXT
  5
17F
100
AcDbEntity
  8
Osie
370
35
100
AcDbText
 10
7565338.32124999631
 20
5717948.28249999695
 40
0.88
  1
5
 50
0.00
 41
0.66
  7
STANDARD
 72
1
 11
7565338.53999999631
 21
5717948.71999999695
100
AcDbText
 73
2
  0
TEXT
  5
180
100
AcDbEntity
  8
Osie
370
35
100
AcDbText
 10
7565320.07124999631
 20
5717965.55249999743
 40
0.88
  1
4
 50
0.00
 41
0.66
  7
STANDARD
 72
1
 11
7565320.28999999631
 21
5717965.98999999743
100
AcDbText
 73
2
  0
TEXT
  5
181
100
AcDbEntity
  8
Osie
370
35
100
AcDbText
 10
7565335.75124999601
 20
5717946.3824999975
 40
0.88
  1
4
 50
0.00
 41
0.66
  7
STANDARD
 72
1
 11
7565335.96999999601
 21
5717946.8199999975
100
AcDbText
 73
2
  0
TEXT
  5
182
100
AcDbEntity
  8
Osie
370
35
100
AcDbText
 10
7565319.15124999639
 20
5717964.97249999736
 40
0.88
  1
3
 50
0.00
 41
0.66
  7
STANDARD
 72
1
 11
7565319.36999999639
 21
5717965.40999999736
100
AcDbText
 73
2
  0
TEXT
  5
183
100
AcDbEntity
  8
Osie
370
35
100
AcDbText
 10
7565334.6312499959
 20
5717945.80249999743
 40
0.88
  1
3
 50
0.00
 41
0.66
  7
STANDARD
 72
1
 11
7565334.8499999959
 21
5717946.23999999743
100
AcDbText
 73
2
  0
TEXT
  5
184
100
AcDbEntity
  8
Osie
370
35
100
AcDbText
 10
7565318.42124999594
 20
5717964.10249999724
 40
0.88
  1
2
 50
0.00
 41
0.66
  7
STANDARD
 72
1
 11
7565318.63999999594
 21
5717964.53999999724
100
AcDbText
 73
2
  0
TEXT
  5
185
100
AcDbEntity
  8
Osie
370
35
100
AcDbText
 10
7565333.71124999598
 20
5717945.1224999968
 40
0.88
  1
2
 50
0.00
 41
0.66
  7
STANDARD
 72
1
 11
7565333.92999999598
 21
5717945.5599999968
100
AcDbText
 73
2
  0
TEXT
  5
186
100
AcDbEntity
  8
Osie
370
35
100
AcDbText
 10
7565313.62124999613
 20
5717960.07249999698
 40
0.88
  1
1
 50
0.00
 41
0.66
  7
STANDARD
 72
1
 11
7565313.83999999613
 21
5717960.50999999698
100
AcDbText
 73
2
  0
TEXT
  5
187
100
AcDbEntity
  8
Osie
370
35
100
AcDbText
 10
7565329.15124999639
 20
5717940.66249999683
 40
0.88
  1
1
 50
0.00
 41
0.66
  7
STANDARD
 72
1
 11
7565329.36999999639
 21
5717941.09999999683
100
AcDbText
 73
2
  0
TEXT
  5
188
100
AcDbEntity
  8
Osie
370
35
100
AcDbText
 10
7565327.21124999598
 20
5717941.04249999672
 40
0.88
  1
D
 50
0.00
 41
0.66
  7
STANDARD
 72
1
 11
7565327.42999999598
 21
5717941.47999999672
100
AcDbText
 73
2
  0
TEXT
  5
189
100
AcDbEntity
  8
Osie
370
35
100
AcDbText
 10
7565341.18124999665
 20
5717952.98249999713
 40
0.88
  1
D
 50
0.00
 41
0.66
  7
STANDARD
 72
1
 11
7565341.39999999665
 21
5717953.41999999713
100
AcDbText
 73
2
  0
TEXT
  5
18A
100
AcDbEntity
  8
Osie
370
35
100
AcDbText
 10
7565323.18124999665
 20
5717946.09249999747
 40
0.88
  1
C
 50
0.00
 41
0.66
  7
STANDARD
 72
1
 11
7565323.39999999665
 21
5717946.52999999747
100
AcDbText
 73
2
  0
TEXT
  5
18B
100
AcDbEntity
  8
Osie
370
35
100
AcDbText
 10
7565337.2012499962
 20
5717957.45249999687
 40
0.88
  1
C
 50
0.00
 41
0.66
  7
STANDARD
 72
1
 11
7565337.4199999962
 21
5717957.88999999687
100
AcDbText
 73
2
  0
TEXT
  5
18C
100
AcDbEntity
  8
Osie
370
35
100
AcDbText
 10
7565317.89124999661
 20
5717952.30249999743
 40
0.88
  1
B
 50
0.00
 41
0.66
  7
STANDARD
 72
1
 11
7565318.10999999661
 21
5717952.73999999743
100
AcDbText
 73
2
  0
TEXT
  5
18D
100
AcDbEntity
  8
Osie
370
35
100
AcDbText
 10
7565332.11124999635
 20
5717963.61249999702
 40
0.88
  1
B
 50
0.00
 41
0.66
  7
STANDARD
 72
1
 11
7565332.32999999635
 21
5717964.04999999702
100
AcDbText
 73
2
  0
TEXT
  5
18E
100
AcDbEntity
  8
Osie
370
35
100
AcDbText
 10
7565313.1312499959
 20
5717958.08249999676
 40
0.88
  1
A
 50
0.00
 41
0.66
  7
STANDARD
 72
1
 11
7565313.3499999959
 21
5717958.51999999676
100
AcDbText
 73
2
  0
TEXT
  5
18F
100
AcDbEntity
  8
Osie
370
35
100
AcDbText
 10
7565327.84124999586
 20
5717969.68249999732
 40
0.88
  1
A
 50
0.00
 41
0.66
  7
STANDARD
 72
1
 11
7565328.05999999586
 21
5717970.11999999732
100
AcDbText
 73
2
  0
ENDSEC
  0
SECTION
  2
OBJECTS
  0
DICTIONARY
  5
190
330
0
100
AcDbDictionary
280
0
281
1
  3
ACAD_GROUP
350
191
  3
ACAD_LAYOUT
350
192
  3
ACAD_MLINESTYLE
350
193
  3
ACAD_PLOTSETTINGS
350
194
  3
ACAD_PLOTSTYLENAME
350
195
  0
DICTIONARY
  5
191
102
{ACAD_REACTORS
330
190
102
}
330
190
100
AcDbDictionary
280
0
281
1
  0
DICTIONARY
  5
192
102
{ACAD_REACTORS
330
190
102
}
330
190
100
AcDbDictionary
280
0
281
1
  3
Layout
350
1D
  3
Model
350
1B
  0
DICTIONARY
  5
193
102
{ACAD_REACTORS
330
190
102
}
330
190
100
AcDbDictionary
280
0
281
1
  3
Standard
350
196
  0
DICTIONARY
  5
194
102
{ACAD_REACTORS
330
190
102
}
330
190
100
AcDbDictionary
280
0
281
1
  0
ACDBDICTIONARYWDFLT
  5
195
102
{ACAD_REACTORS
330
190
102
}
330
190
100
AcDbDictionary
281
1
  3
Normal
350
A
100
AcDbDictionaryWithDefault
340
A
  0
LAYOUT
  5
1D
100
AcDbPlotSettings
  1

  2

  4

  6

 40
0.0
 41
0.0
 42
0.0
 43
0.0
 44
0.0
 45
0.0
 46
0.0
 47
0.0
 48
0.0
 49
0.0
140
0.0
141
0.0
142
1.0
143
1.0
 70
688
 72
1
 73
0
 74
5
  7

 75
0
147
1.0
148
0.0
149
0.0
100
AcDbLayout
  1
Layout
 70
1
 71
1
 10
0.0
 20
0.0
 11
420.0
 21
297.0
 12
0.0
 22
0.0
 32
0.0
 14
100000000000000000000.0
 24
100000000000000000000.0
 34
100000000000000000000.0
 15
-100000000000000000000.0
 25
-100000000000000000000.0
 35
-100000000000000000000.0
146
0.0
 13
0.0
 23
0.0
 33
0.0
 16
1.0
 26
0.0
 36
0.0
 17
0.0
 27
1.0
 37
0.0
 76
0
330
1C
  0
LAYOUT
  5
1B
100
AcDbPlotSettings
  1

  2

  4

  6

 40
0.0
 41
0.0
 42
0.0
 43
0.0
 44
0.0
 45
0.0
 46
0.0
 47
0.0
 48
0.0
 49
0.0
140
0.0
141
0.0
142
1.0
143
1.0
 70
1712
 72
1
 73
0
 74
0
  7

 75
0
147
1.0
148
0.0
149
0.0
100
AcDbLayout
  1
Model
 70
1
 71
0
 10
0.0
 20
0.0
 11
12.0
 21
9.0
 12
0.0
 22
0.0
 32
0.0
 14
0.0
 24
0.0
 34
0.0
 15
0.0
 25
0.0
 35
0.0
146
0.0
 13
0.0
 23
0.0
 33
0.0
 16
1.0
 26
0.0
 36
0.0
 17
0.0
 27
1.0
 37
0.0
 76
0
330
1A
  0
MLINESTYLE
  5
196
102
{ACAD_REACTORS
330
193
102
}
330
193
100
AcDbMlineStyle
  2
Standard
 70
0
  3

 62
256
 51
90.0
 52
90.0
  2
Standard
 71
2
 49
0.5
 62
256
  6
ByLayer
 49
-0.5
 62
256
  6
ByLayer
  0
ACDBPLACEHOLDER
  5
A
  0
ENDSEC
  0
EOF
